  0
SECTION
  2
HEADER
  9
$ACADVER
  1
AC1015
  9
$ACADMAINTVER
 70
     6
  9
$DWGCODEPAGE
  3
ANSI_1254
  9
$INSBASE
 10
0.0
 20
0.0
 30
0.0
  9
$EXTMIN
 10
0.0
 20
0.0
 30
0.0
  9
$EXTMAX
 10
279.4
 20
215.9
 30
0.0
  9
$LIMMIN
 10
0.0
 20
0.0
  9
$LIMMAX
 10
279.4
 20
215.9
  9
$ORTHOMODE
 70
     0
  9
$REGENMODE
 70
     1
  9
$FILLMODE
 70
     1
  9
$QTEXTMODE
 70
     0
  9
$MIRRTEXT
 70
     1
  9
$LTSCALE
 40
1.0
  9
$ATTMODE
 70
     1
  9
$TEXTSIZE
 40
3.5
  9
$TRACEWID
 40
1.0
  9
$TEXTSTYLE
  7
Standard
  9
$CLAYER
  8
0
  9
$CELTYPE
  6
ByLayer
  9
$CECOLOR
 62
   256
  9
$CELTSCALE
 40
1.0
  9
$DISPSILH
 70
     0
  9
$DIMSCALE
 40
1.0
  9
$DIMASZ
 40
3.5
  9
$DIMEXO
 40
1.0
  9
$DIMDLI
 40
3.75
  9
$DIMRND
 40
0.0
  9
$DIMDLE
 40
0.0
  9
$DIMEXE
 40
1.0
  9
$DIMTP
 40
0.0
  9
$DIMTM
 40
0.0
  9
$DIMTXT
 40
3.5
  9
$DIMCEN
 40
2.5
  9
$DIMTSZ
 40
0.0
  9
$DIMTOL
 70
     0
  9
$DIMLIM
 70
     0
  9
$DIMTIH
 70
     1
  9
$DIMTOH
 70
     1
  9
$DIMSE1
 70
     0
  9
$DIMSE2
 70
     0
  9
$DIMTAD
 70
     1
  9
$DIMZIN
 70
     0
  9
$DIMBLK
  1

  9
$DIMASO
 70
     1
  9
$DIMSHO
 70
     1
  9
$DIMPOST
  1

  9
$DIMAPOST
  1

  9
$DIMALT
 70
     0
  9
$DIMALTD
 70
     3
  9
$DIMALTF
 40
0.0393700787
  9
$DIMLFAC
 40
1.0
  9
$DIMTOFL
 70
     1
  9
$DIMTVP
 40
0.0
  9
$DIMTIX
 70
     0
  9
$DIMSOXD
 70
     0
  9
$DIMSAH
 70
     0
  9
$DIMBLK1
  1

  9
$DIMBLK2
  1

  9
$DIMSTYLE
  2
ISO-25
  9
$DIMCLRD
 70
     0
  9
$DIMCLRE
 70
     0
  9
$DIMCLRT
 70
     0
  9
$DIMTFAC
 40
1.0
  9
$DIMGAP
 40
1.524
  9
$DIMJUST
 70
     0
  9
$DIMSD1
 70
     0
  9
$DIMSD2
 70
     0
  9
$DIMTOLJ
 70
     0
  9
$DIMTZIN
 70
     0
  9
$DIMALTZ
 70
     0
  9
$DIMALTTZ
 70
     0
  9
$DIMUPT
 70
     0
  9
$DIMDEC
 70
     2
  9
$DIMTDEC
 70
     2
  9
$DIMALTU
 70
     2
  9
$DIMALTTD
 70
     3
  9
$DIMTXSTY
  7
Standard
  9
$DIMAUNIT
 70
     0
  9
$DIMADEC
 70
     2
  9
$DIMALTRND
 40
0.0
  9
$DIMAZIN
 70
     0
  9
$DIMDSEP
 70
    44
  9
$DIMATFIT
 70
     3
  9
$DIMFRAC
 70
     0
  9
$DIMLDRBLK
  1

  9
$DIMLUNIT
 70
     2
  9
$DIMLWD
 70
    -2
  9
$DIMLWE
 70
    -2
  9
$DIMTMOVE
 70
     0
  9
$LUNITS
 70
     2
  9
$LUPREC
 70
     2
  9
$SKETCHINC
 40
1.0
  9
$FILLETRAD
 40
10.0
  9
$AUNITS
 70
     0
  9
$AUPREC
 70
     2
  9
$MENU
  1
.
  9
$ELEVATION
 40
0.0
  9
$PELEVATION
 40
0.0
  9
$THICKNESS
 40
0.0
  9
$LIMCHECK
 70
     0
  9
$CHAMFERA
 40
0.0
  9
$CHAMFERB
 40
0.0
  9
$CHAMFERC
 40
0.0
  9
$CHAMFERD
 40
0.0
  9
$SKPOLY
 70
     0
  9
$TDCREATE
 40
2459935.699307546
  9
$TDUCREATE
 40
2459935.574307546
  9
$TDUPDATE
 40
2459935.699307731
  9
$TDUUPDATE
 40
2459935.574307731
  9
$TDINDWG
 40
0.0000000116
  9
$TDUSRTIMER
 40
0.0000000116
  9
$USRTIMER
 70
     1
  9
$ANGBASE
 50
0.0
  9
$ANGDIR
 70
     0
  9
$PDMODE
 70
     0
  9
$PDSIZE
 40
-1.0
  9
$PLINEWID
 40
0.0
  9
$SPLFRAME
 70
     0
  9
$SPLINETYPE
 70
     6
  9
$SPLINESEGS
 70
     8
  9
$HANDSEED
  5
ED
  9
$SURFTAB1
 70
     6
  9
$SURFTAB2
 70
     6
  9
$SURFTYPE
 70
     6
  9
$SURFU
 70
     6
  9
$SURFV
 70
     6
  9
$UCSBASE
  2

  9
$UCSNAME
  2

  9
$UCSORG
 10
0.0
 20
0.0
 30
0.0
  9
$UCSXDIR
 10
1.0
 20
0.0
 30
0.0
  9
$UCSYDIR
 10
0.0
 20
1.0
 30
0.0
  9
$UCSORTHOREF
  2

  9
$UCSORTHOVIEW
 70
     0
  9
$UCSORGTOP
 10
0.0
 20
0.0
 30
0.0
  9
$UCSORGBOTTOM
 10
0.0
 20
0.0
 30
0.0
  9
$UCSORGLEFT
 10
0.0
 20
0.0
 30
0.0
  9
$UCSORGRIGHT
 10
0.0
 20
0.0
 30
0.0
  9
$UCSORGFRONT
 10
0.0
 20
0.0
 30
0.0
  9
$UCSORGBACK
 10
0.0
 20
0.0
 30
0.0
  9
$PUCSBASE
  2

  9
$PUCSNAME
  2

  9
$PUCSORG
 10
0.0
 20
0.0
 30
0.0
  9
$PUCSXDIR
 10
1.0
 20
0.0
 30
0.0
  9
$PUCSYDIR
 10
0.0
 20
1.0
 30
0.0
  9
$PUCSORTHOREF
  2

  9
$PUCSORTHOVIEW
 70
     0
  9
$PUCSORGTOP
 10
0.0
 20
0.0
 30
0.0
  9
$PUCSORGBOTTOM
 10
0.0
 20
0.0
 30
0.0
  9
$PUCSORGLEFT
 10
0.0
 20
0.0
 30
0.0
  9
$PUCSORGRIGHT
 10
0.0
 20
0.0
 30
0.0
  9
$PUCSORGFRONT
 10
0.0
 20
0.0
 30
0.0
  9
$PUCSORGBACK
 10
0.0
 20
0.0
 30
0.0
  9
$USERI1
 70
     0
  9
$USERI2
 70
     0
  9
$USERI3
 70
     0
  9
$USERI4
 70
     0
  9
$USERI5
 70
     0
  9
$USERR1
 40
0.0
  9
$USERR2
 40
0.0
  9
$USERR3
 40
0.0
  9
$USERR4
 40
0.0
  9
$USERR5
 40
0.0
  9
$WORLDVIEW
 70
     1
  9
$SHADEDGE
 70
     3
  9
$SHADEDIF
 70
    70
  9
$TILEMODE
 70
     1
  9
$MAXACTVP
 70
    64
  9
$PINSBASE
 10
0.0
 20
0.0
 30
0.0
  9
$PLIMCHECK
 70
     0
  9
$PEXTMIN
 10
1.0000000000E+20
 20
1.0000000000E+20
 30
1.0000000000E+20
  9
$PEXTMAX
 10
-1.0000000000E+20
 20
-1.0000000000E+20
 30
-1.0000000000E+20
  9
$PLIMMIN
 10
0.0
 20
0.0
  9
$PLIMMAX
 10
420.0
 20
297.0
  9
$UNITMODE
 70
     0
  9
$VISRETAIN
 70
     1
  9
$PLINEGEN
 70
     0
  9
$PSLTSCALE
 70
     1
  9
$TREEDEPTH
 70
  3020
  9
$CMLSTYLE
  2
Standard
  9
$CMLJUST
 70
     0
  9
$CMLSCALE
 40
20.0
  9
$PROXYGRAPHICS
 70
     1
  9
$MEASUREMENT
 70
     1
  9
$CELWEIGHT
370
    -1
  9
$ENDCAPS
280
     0
  9
$JOINSTYLE
280
     0
  9
$LWDISPLAY
290
     1
  9
$INSUNITS
 70
     4
  9
$HYPERLINKBASE
  1

  9
$STYLESHEET
  1

  9
$XEDIT
290
     1
  9
$CEPSNTYPE
380
     0
  9
$PSTYLEMODE
290
     1
  9
$FINGERPRINTGUID
  2
{8be47330-7f63-4390-b656-e490b92f137b}
  9
$VERSIONGUID
  2
{FAEB1C32-E019-11D5-929B-00C0DF256EC4}
  9
$EXTNAMES
290
     1
  9
$PSVPSCALE
 40
0.0
  9
$OLESTARTUP
290
     0
  0
ENDSEC
  0
SECTION
  2
CLASSES
  0
CLASS
  1
ACDBDICTIONARYWDFLT
  2
AcDbDictionaryWithDefault
  3
ObjectDBX Classes
 90
        0
280
     0
281
     0
  0
CLASS
  1
VISUALSTYLE
  2
AcDbVisualStyle
  3
ObjectDBX Classes
 90
     4095
280
     0
281
     0
  0
CLASS
  1
MATERIAL
  2
AcDbMaterial
  3
ObjectDBX Classes
 90
     1153
280
     0
281
     0
  0
CLASS
  1
SCALE
  2
AcDbScale
  3
ObjectDBX Classes
 90
     1153
280
     0
281
     0
  0
CLASS
  1
TABLESTYLE
  2
AcDbTableStyle
  3
ObjectDBX Classes
 90
     4095
280
     0
281
     0
  0
CLASS
  1
MLEADERSTYLE
  2
AcDbMLeaderStyle
  3
ACDB_MLEADERSTYLE_CLASS
 90
     4095
280
     0
281
     0
  0
CLASS
  1
SUN
  2
AcDbSun
  3
SCENEOE
 90
     1153
280
     0
281
     0
  0
CLASS
  1
ACDBPLACEHOLDER
  2
AcDbPlaceHolder
  3
ObjectDBX Classes
 90
        0
280
     0
281
     0
  0
CLASS
  1
LAYOUT
  2
AcDbLayout
  3
ObjectDBX Classes
 90
        0
280
     0
281
     0
  0
ENDSEC
  0
SECTION
  2
TABLES
  0
TABLE
  2
VPORT
  5
8
330
0
100
AcDbSymbolTable
 70
     1
  0
VPORT
  5
29
330
8
100
AcDbSymbolTableRecord
100
AcDbViewportTableRecord
  2
*Active
 70
     0
 10
0.0
 20
0.0
 11
1.0
 21
1.0
 12
139.7
 22
107.95
 13
0.0
 23
0.0
 14
10.0
 24
10.0
 15
10.0
 25
10.0
 16
0.0
 26
0.0
 36
1.0
 17
0.0
 27
0.0
 37
0.0
 40
215.9
 41
1.2941176471
 42
50.0
 43
0.0
 44
0.0
 50
0.0
 51
0.0
 71
     0
 72
  2000
 73
     1
 74
     3
 75
     0
 76
     0
 77
     0
 78
     0
281
     0
 65
     1
110
0.0
120
0.0
130
0.0
111
1.0
121
0.0
131
0.0
112
0.0
122
1.0
132
0.0
 79
     0
146
0.0
  0
ENDTAB
  0
TABLE
  2
LTYPE
  5
5
330
0
100
AcDbSymbolTable
 70
     6
  0
LTYPE
  5
14
330
5
100
AcDbSymbolTableRecord
100
AcDbLinetypeTableRecord
  2
ByBlock
 70
     0
  3

 72
    65
 73
     0
 40
0.0
  0
LTYPE
  5
15
330
5
100
AcDbSymbolTableRecord
100
AcDbLinetypeTableRecord
  2
ByLayer
 70
     0
  3

 72
    65
 73
     0
 40
0.0
  0
LTYPE
  5
16
330
5
100
AcDbSymbolTableRecord
100
AcDbLinetypeTableRecord
  2
Continuous
 70
     0
  3
Solid line
 72
    65
 73
     0
 40
0.0
  0
LTYPE
  5
6E
330
5
100
AcDbSymbolTableRecord
100
AcDbLinetypeTableRecord
  2
HIDDEN
 70
     0
  3
Hidden __ __ __ __ __ __ __ __ __ __ __ __ __ __
 72
    65
 73
     2
 40
1.905
 49
1.27
 74
     0
 49
-0.635
 74
     0
  0
LTYPE
  5
6F
330
5
100
AcDbSymbolTableRecord
100
AcDbLinetypeTableRecord
  2
PHANTOM
 70
     0
  3
Phantom ______  __  __  ______  __  __  ______
 72
    65
 73
     6
 40
12.7
 49
6.35
 74
     0
 49
-1.27
 74
     0
 49
1.27
 74
     0
 49
-1.27
 74
     0
 49
1.27
 74
     0
 49
-1.27
 74
     0
  0
LTYPE
  5
70
330
5
100
AcDbSymbolTableRecord
100
AcDbLinetypeTableRecord
  2
CENTER
 70
     0
  3
Center ____ _ ____ _ ____ _ ____ _ ____ _ ____
 72
    65
 73
     4
 40
10.16
 49
6.35
 74
     0
 49
-1.27
 74
     0
 49
1.27
 74
     0
 49
-1.27
 74
     0
  0
LTYPE
  5
71
330
5
100
AcDbSymbolTableRecord
100
AcDbLinetypeTableRecord
  2
CENTERX2
 70
     0
  3
Center (2x) ________  __  ________  __  _____
 72
    65
 73
     4
 40
20.32
 49
12.7
 74
     0
 49
-2.54
 74
     0
 49
2.54
 74
     0
 49
-2.54
 74
     0
  0
LTYPE
  5
72
330
5
100
AcDbSymbolTableRecord
100
AcDbLinetypeTableRecord
  2
DOT2
 70
     0
  3
Dot (.5x) ........................................
 72
    65
 73
     2
 40
0.635
 49
0.0
 74
     0
 49
-0.635
 74
     0
  0
ENDTAB
  0
TABLE
  2
LAYER
  5
2
330
0
100
AcDbSymbolTable
 70
    17
  0
LAYER
  5
10
330
2
100
AcDbSymbolTableRecord
100
AcDbLayerTableRecord
  2
0
 70
     0
 62
     7
  6
Continuous
370
    -3
390
F
  0
LAYER
  5
73
330
2
100
AcDbSymbolTableRecord
100
AcDbLayerTableRecord
  2
FORMAT
 70
     0
 62
     7
  6
Continuous
370
    -3
390
F
  0
LAYER
  5
74
330
2
100
AcDbSymbolTableRecord
100
AcDbLayerTableRecord
  2
YARDIMCI_GEOMETRI
 70
     0
 62
    -6
  6
Continuous
290
     0
370
    -3
390
F
  0
LAYER
  5
75
330
2
100
AcDbSymbolTableRecord
100
AcDbLayerTableRecord
  2
SAYFA_CERCEVESI
 70
     0
 62
     7
  6
Continuous
370
    25
390
F
  0
LAYER
  5
76
330
2
100
AcDbSymbolTableRecord
100
AcDbLayerTableRecord
  2
ANTET
 70
     0
 62
     7
  6
Continuous
370
    -3
390
F
  0
LAYER
  5
77
330
2
100
AcDbSymbolTableRecord
100
AcDbLayerTableRecord
  2
OLCU
 70
     0
 62
   150
  6
Continuous
370
    -3
390
F
  0
LAYER
  5
78
330
2
100
AcDbSymbolTableRecord
100
AcDbLayerTableRecord
  2
METIN
 70
     0
 62
    96
  6
Continuous
370
    -3
390
F
  0
LAYER
  5
79
330
2
100
AcDbSymbolTableRecord
100
AcDbLayerTableRecord
  2
BALON
 70
     0
 62
     5
  6
Continuous
370
    -3
390
F
  0
LAYER
  5
7A
330
2
100
AcDbSymbolTableRecord
100
AcDbLayerTableRecord
  2
VURGU
 70
     0
 62
     7
  6
Continuous
370
    -3
390
F
  0
LAYER
  5
7B
330
2
100
AcDbSymbolTableRecord
100
AcDbLayerTableRecord
  2
SILIK
 70
     0
 62
     7
  6
Continuous
370
    -3
390
F
  0
LAYER
  5
7C
330
2
100
AcDbSymbolTableRecord
100
AcDbLayerTableRecord
  2
MODEL
 70
     0
 62
     7
  6
Continuous
370
    -3
390
F
  0
LAYER
  5
7D
330
2
100
AcDbSymbolTableRecord
100
AcDbLayerTableRecord
  2
DETAYLANDıRMA
 70
     0
 62
   190
  6
Continuous
370
    -3
390
F
  0
LAYER
  5
7E
330
2
100
AcDbSymbolTableRecord
100
AcDbLayerTableRecord
  2
TOLERANS
 70
     0
 62
   230
  6
Continuous
370
    -3
390
F
  0
LAYER
  5
7F
330
2
100
AcDbSymbolTableRecord
100
AcDbLayerTableRecord
  2
MERKEZ_CIZGILERI
 70
     0
 62
    30
  6
Continuous
370
    -3
390
F
  0
LAYER
  5
80
330
2
100
AcDbSymbolTableRecord
100
AcDbLayerTableRecord
  2
KESIT-DETAY_CIZGILERI
 70
     0
 62
     7
  6
Continuous
370
    -3
390
F
  0
LAYER
  5
81
330
2
100
AcDbSymbolTableRecord
100
AcDbLayerTableRecord
  2
\U+041E\U+0421\U+0415\U+0412\U+042B\U+0415
 70
     0
 62
     7
  6
Continuous
370
    -3
390
F
  0
LAYER
  5
82
330
2
100
AcDbSymbolTableRecord
100
AcDbLayerTableRecord
  2
\U+0412\U+041E\U+0414\U+042F\U+041D\U+042B\U+0415_\U+0417\U+041D\U+0410\U+041A\U+0418
 70
     0
 62
    11
  6
Continuous
370
    -3
390
F
  0
ENDTAB
  0
TABLE
  2
STYLE
  5
3
330
0
100
AcDbSymbolTable
 70
     1
  0
STYLE
  5
11
330
3
100
AcDbSymbolTableRecord
100
AcDbTextStyleTableRecord
  2
Standard
 70
     0
 40
0.0
 41
1.0
 50
0.0
 71
     0
 42
3.5
  3
txt
  4

  0
ENDTAB
  0
TABLE
  2
VIEW
  5
6
330
0
100
AcDbSymbolTable
 70
     0
  0
ENDTAB
  0
TABLE
  2
UCS
  5
7
330
0
100
AcDbSymbolTable
 70
     0
  0
ENDTAB
  0
TABLE
  2
APPID
  5
9
330
0
100
AcDbSymbolTable
 70
     1
  0
APPID
  5
12
330
9
100
AcDbSymbolTableRecord
100
AcDbRegAppTableRecord
  2
ACAD
 70
     0
  0
ENDTAB
  0
TABLE
  2
DIMSTYLE
  5
A
330
0
100
AcDbSymbolTable
 70
     1
100
AcDbDimStyleTable
  0
DIMSTYLE
105
27
330
A
100
AcDbSymbolTableRecord
100
AcDbDimStyleTableRecord
  2
ISO-25
 70
     0
 41
2.5
 42
0.625
 43
3.75
 44
1.25
 73
     0
 74
     0
 77
     1
 78
     8
140
2.5
141
2.5
143
0.0393700787
147
0.625
171
     3
172
     1
178
     0
271
     2
272
     2
274
     3
278
    44
283
     0
284
     8
340
11
  0
ENDTAB
  0
TABLE
  2
BLOCK_RECORD
  5
1
330
0
100
AcDbSymbolTable
 70
     5
  0
BLOCK_RECORD
  5
1F
330
1
100
AcDbSymbolTableRecord
100
AcDbBlockTableRecord
  2
*Model_Space
340
22
  0
BLOCK_RECORD
  5
1B
330
1
100
AcDbSymbolTableRecord
100
AcDbBlockTableRecord
  2
*Paper_Space
340
1E
  0
BLOCK_RECORD
  5
23
330
1
100
AcDbSymbolTableRecord
100
AcDbBlockTableRecord
  2
*Paper_Space0
340
26
  0
BLOCK_RECORD
  5
97
330
1
100
AcDbSymbolTableRecord
100
AcDbBlockTableRecord
  2
SW_CENTERMARKSYMBOL_0
340
0
102
{BLKREFS
331
A2
102
}
  0
BLOCK_RECORD
  5
AC
330
1
100
AcDbSymbolTableRecord
100
AcDbBlockTableRecord
  2
SW_CENTERMARKSYMBOL_1
340
0
102
{BLKREFS
331
B7
102
}
  0
BLOCK_RECORD
  5
BF
330
1
100
AcDbSymbolTableRecord
100
AcDbBlockTableRecord
  2
SW_CENTERMARKSYMBOL_2
340
0
102
{BLKREFS
331
CA
102
}
  0
BLOCK_RECORD
  5
D2
330
1
100
AcDbSymbolTableRecord
100
AcDbBlockTableRecord
  2
SW_CENTERMARKSYMBOL_3
340
0
102
{BLKREFS
331
DD
102
}
  0
ENDTAB
  0
ENDSEC
  0
SECTION
  2
BLOCKS
  0
BLOCK
  5
20
330
1F
100
AcDbEntity
  8
0
100
AcDbBlockBegin
  2
*Model_Space
 70
     0
 10
0.0
 20
0.0
 30
0.0
  3
*Model_Space
  1

  0
ENDBLK
  5
21
330
1F
100
AcDbEntity
  8
0
100
AcDbBlockEnd
  0
BLOCK
  5
1C
330
1B
100
AcDbEntity
 67
     1
  8
0
100
AcDbBlockBegin
  2
*Paper_Space
 70
     0
 10
0.0
 20
0.0
 30
0.0
  3
*Paper_Space
  1

  0
ENDBLK
  5
1D
330
1B
100
AcDbEntity
 67
     1
  8
0
100
AcDbBlockEnd
  0
BLOCK
  5
24
330
23
100
AcDbEntity
  8
0
100
AcDbBlockBegin
  2
*Paper_Space0
 70
     0
 10
0.0
 20
0.0
 30
0.0
  3
*Paper_Space0
  1

  0
ENDBLK
  5
25
330
23
100
AcDbEntity
  8
0
100
AcDbBlockEnd
  0
BLOCK
  5
98
330
97
100
AcDbEntity
  8
0
100
AcDbBlockBegin
  2
SW_CENTERMARKSYMBOL_0
 70
     0
 10
0.0
 20
0.0
 30
0.0
  3
SW_CENTERMARKSYMBOL_0
  1

  0
LINE
  5
9A
330
97
100
AcDbEntity
  8
FORMAT
 62
     0
100
AcDbLine
 10
0.0
 20
0.0
 30
0.0
 11
0.0
 21
2.5
 31
0.0
  0
LINE
  5
9B
330
97
100
AcDbEntity
  8
FORMAT
 62
     0
100
AcDbLine
 10
0.0
 20
0.0
 30
0.0
 11
-2.5
 21
0.0
 31
0.0
  0
LINE
  5
9C
330
97
100
AcDbEntity
  8
FORMAT
 62
     0
100
AcDbLine
 10
0.0
 20
0.0
 30
0.0
 11
0.0
 21
-2.5
 31
0.0
  0
LINE
  5
9D
330
97
100
AcDbEntity
  8
FORMAT
 62
     0
100
AcDbLine
 10
0.0
 20
0.0
 30
0.0
 11
2.5
 21
0.0
 31
0.0
  0
LINE
  5
9E
330
97
100
AcDbEntity
  8
FORMAT
 62
     0
100
AcDbLine
 10
0.0
 20
5.0
 30
0.0
 11
0.0
 21
27.5
 31
0.0
  0
LINE
  5
9F
330
97
100
AcDbEntity
  8
FORMAT
 62
     0
100
AcDbLine
 10
-5.0
 20
0.0
 30
0.0
 11
-27.5
 21
0.0
 31
0.0
  0
LINE
  5
A0
330
97
100
AcDbEntity
  8
FORMAT
 62
     0
100
AcDbLine
 10
0.0
 20
-5.0
 30
0.0
 11
0.0
 21
-27.5
 31
0.0
  0
LINE
  5
A1
330
97
100
AcDbEntity
  8
FORMAT
 62
     0
100
AcDbLine
 10
5.0
 20
0.0
 30
0.0
 11
27.5
 21
0.0
 31
0.0
  0
ENDBLK
  5
99
330
97
100
AcDbEntity
  8
0
100
AcDbBlockEnd
  0
BLOCK
  5
AD
330
AC
100
AcDbEntity
  8
0
100
AcDbBlockBegin
  2
SW_CENTERMARKSYMBOL_1
 70
     0
 10
0.0
 20
0.0
 30
0.0
  3
SW_CENTERMARKSYMBOL_1
  1

  0
LINE
  5
AF
330
AC
100
AcDbEntity
  8
FORMAT
 62
     0
100
AcDbLine
 10
0.0
 20
0.0
 30
0.0
 11
0.0
 21
2.5
 31
0.0
  0
LINE
  5
B0
330
AC
100
AcDbEntity
  8
FORMAT
 62
     0
100
AcDbLine
 10
0.0
 20
0.0
 30
0.0
 11
-2.5
 21
0.0
 31
0.0
  0
LINE
  5
B1
330
AC
100
AcDbEntity
  8
FORMAT
 62
     0
100
AcDbLine
 10
0.0
 20
0.0
 30
0.0
 11
0.0
 21
-2.5
 31
0.0
  0
LINE
  5
B2
330
AC
100
AcDbEntity
  8
FORMAT
 62
     0
100
AcDbLine
 10
0.0
 20
0.0
 30
0.0
 11
2.5
 21
0.0
 31
0.0
  0
LINE
  5
B3
330
AC
100
AcDbEntity
  8
FORMAT
 62
     0
100
AcDbLine
 10
0.0
 20
5.0
 30
0.0
 11
0.0
 21
27.5
 31
0.0
  0
LINE
  5
B4
330
AC
100
AcDbEntity
  8
FORMAT
 62
     0
100
AcDbLine
 10
-5.0
 20
0.0
 30
0.0
 11
-27.5
 21
0.0
 31
0.0
  0
LINE
  5
B5
330
AC
100
AcDbEntity
  8
FORMAT
 62
     0
100
AcDbLine
 10
0.0
 20
-5.0
 30
0.0
 11
0.0
 21
-27.5
 31
0.0
  0
LINE
  5
B6
330
AC
100
AcDbEntity
  8
FORMAT
 62
     0
100
AcDbLine
 10
5.0
 20
0.0
 30
0.0
 11
27.5
 21
0.0
 31
0.0
  0
ENDBLK
  5
AE
330
AC
100
AcDbEntity
  8
0
100
AcDbBlockEnd
  0
BLOCK
  5
C0
330
BF
100
AcDbEntity
  8
0
100
AcDbBlockBegin
  2
SW_CENTERMARKSYMBOL_2
 70
     0
 10
0.0
 20
0.0
 30
0.0
  3
SW_CENTERMARKSYMBOL_2
  1

  0
LINE
  5
C2
330
BF
100
AcDbEntity
  8
FORMAT
 62
     0
100
AcDbLine
 10
0.0
 20
0.0
 30
0.0
 11
0.0
 21
2.5
 31
0.0
  0
LINE
  5
C3
330
BF
100
AcDbEntity
  8
FORMAT
 62
     0
100
AcDbLine
 10
0.0
 20
0.0
 30
0.0
 11
-2.5
 21
0.0
 31
0.0
  0
LINE
  5
C4
330
BF
100
AcDbEntity
  8
FORMAT
 62
     0
100
AcDbLine
 10
0.0
 20
0.0
 30
0.0
 11
0.0
 21
-2.5
 31
0.0
  0
LINE
  5
C5
330
BF
100
AcDbEntity
  8
FORMAT
 62
     0
100
AcDbLine
 10
0.0
 20
0.0
 30
0.0
 11
2.5
 21
0.0
 31
0.0
  0
LINE
  5
C6
330
BF
100
AcDbEntity
  8
FORMAT
 62
     0
100
AcDbLine
 10
0.0
 20
5.0
 30
0.0
 11
0.0
 21
27.5
 31
0.0
  0
LINE
  5
C7
330
BF
100
AcDbEntity
  8
FORMAT
 62
     0
100
AcDbLine
 10
-5.0
 20
0.0
 30
0.0
 11
-27.5
 21
0.0
 31
0.0
  0
LINE
  5
C8
330
BF
100
AcDbEntity
  8
FORMAT
 62
     0
100
AcDbLine
 10
0.0
 20
-5.0
 30
0.0
 11
0.0
 21
-27.5
 31
0.0
  0
LINE
  5
C9
330
BF
100
AcDbEntity
  8
FORMAT
 62
     0
100
AcDbLine
 10
5.0
 20
0.0
 30
0.0
 11
27.5
 21
0.0
 31
0.0
  0
ENDBLK
  5
C1
330
BF
100
AcDbEntity
  8
0
100
AcDbBlockEnd
  0
BLOCK
  5
D3
330
D2
100
AcDbEntity
  8
0
100
AcDbBlockBegin
  2
SW_CENTERMARKSYMBOL_3
 70
     0
 10
0.0
 20
0.0
 30
0.0
  3
SW_CENTERMARKSYMBOL_3
  1

  0
LINE
  5
D5
330
D2
100
AcDbEntity
  8
FORMAT
 62
     0
100
AcDbLine
 10
0.0
 20
0.0
 30
0.0
 11
0.0
 21
2.5
 31
0.0
  0
LINE
  5
D6
330
D2
100
AcDbEntity
  8
FORMAT
 62
     0
100
AcDbLine
 10
0.0
 20
0.0
 30
0.0
 11
-2.5
 21
0.0
 31
0.0
  0
LINE
  5
D7
330
D2
100
AcDbEntity
  8
FORMAT
 62
     0
100
AcDbLine
 10
0.0
 20
0.0
 30
0.0
 11
0.0
 21
-2.5
 31
0.0
  0
LINE
  5
D8
330
D2
100
AcDbEntity
  8
FORMAT
 62
     0
100
AcDbLine
 10
0.0
 20
0.0
 30
0.0
 11
2.5
 21
0.0
 31
0.0
  0
LINE
  5
D9
330
D2
100
AcDbEntity
  8
FORMAT
 62
     0
100
AcDbLine
 10
0.0
 20
5.0
 30
0.0
 11
0.0
 21
27.5
 31
0.0
  0
LINE
  5
DA
330
D2
100
AcDbEntity
  8
FORMAT
 62
     0
100
AcDbLine
 10
-5.0
 20
0.0
 30
0.0
 11
-27.5
 21
0.0
 31
0.0
  0
LINE
  5
DB
330
D2
100
AcDbEntity
  8
FORMAT
 62
     0
100
AcDbLine
 10
0.0
 20
-5.0
 30
0.0
 11
0.0
 21
-27.5
 31
0.0
  0
LINE
  5
DC
330
D2
100
AcDbEntity
  8
FORMAT
 62
     0
100
AcDbLine
 10
5.0
 20
0.0
 30
0.0
 11
27.5
 21
0.0
 31
0.0
  0
ENDBLK
  5
D4
330
D2
100
AcDbEntity
  8
0
100
AcDbBlockEnd
  0
ENDSEC
  0
SECTION
  2
ENTITIES
  0
LINE
  5
83
330
1F
100
AcDbEntity
  8
0
  6
Continuous
 62
     7
370
    25
100
AcDbLine
 10
101.9812701254
 20
102.5117450307
 30
0.0
 11
101.9812701254
 21
35.5117450307
 31
0.0
  0
LINE
  5
84
330
1F
100
AcDbEntity
  8
0
  6
Continuous
 62
     7
370
    25
100
AcDbLine
 10
151.9812701254
 20
35.5117450307
 30
0.0
 11
151.9812701254
 21
102.5117450307
 31
0.0
  0
ARC
  5
85
330
1F
100
AcDbEntity
  8
0
  6
Continuous
 62
     7
370
    25
100
AcDbCircle
 10
151.9812701254
 20
102.5117450307
 30
0.0
 40
50.0
100
AcDbArc
 50
90.0
 51
180.0
  0
LINE
  5
86
330
1F
100
AcDbEntity
  8
0
  6
Continuous
 62
     7
370
    25
100
AcDbLine
 10
218.9812701254
 20
152.5117450307
 30
0.0
 11
151.9812701254
 21
152.5117450307
 31
0.0
  0
LINE
  5
87
330
1F
100
AcDbEntity
  8
0
  6
Continuous
 62
     7
370
    25
100
AcDbLine
 10
151.9812701254
 20
102.5117450307
 30
0.0
 11
218.9812701254
 21
102.5117450307
 31
0.0
  0
LINE
  5
88
330
1F
100
AcDbEntity
  8
0
  6
Continuous
 62
     7
370
    25
100
AcDbLine
 10
126.9812701254
 20
35.5117450307
 30
0.0
 11
151.9812701254
 21
35.5117450307
 31
0.0
  0
LINE
  5
89
330
1F
100
AcDbEntity
  8
0
  6
Continuous
 62
     7
370
    25
100
AcDbLine
 10
101.9812701254
 20
35.5117450307
 30
0.0
 11
126.9812701254
 21
35.5117450307
 31
0.0
  0
LINE
  5
8A
330
1F
100
AcDbEntity
  8
0
  6
Continuous
 62
     7
370
    25
100
AcDbLine
 10
218.9812701254
 20
127.5117450307
 30
0.0
 11
218.9812701254
 21
102.5117450307
 31
0.0
  0
LINE
  5
8B
330
1F
100
AcDbEntity
  8
0
  6
Continuous
 62
     7
370
    25
100
AcDbLine
 10
218.9812701254
 20
152.5117450307
 30
0.0
 11
218.9812701254
 21
127.5117450307
 31
0.0
  0
LINE
  5
8C
330
1F
100
AcDbEntity
  8
0
  6
Continuous
 62
     1
370
    25
100
AcDbLine
 10
101.9812701254
 20
102.5117450307
 30
0.0
 11
151.9812701254
 21
102.5117450307
 31
0.0
  0
LINE
  5
8D
330
1F
100
AcDbEntity
  8
0
  6
Continuous
 62
     1
370
    25
100
AcDbLine
 10
151.9812701254
 20
152.5117450307
 30
0.0
 11
151.9812701254
 21
102.5117450307
 31
0.0
  0
LINE
  5
8E
330
1F
100
AcDbEntity
  8
0
  6
Continuous
 62
     7
370
    25
100
AcDbLine
 10
0.5875742417
 20
127.5117450307
 30
0.0
 11
0.5875742417
 21
102.5117450307
 31
0.0
  0
LINE
  5
8F
330
1F
100
AcDbEntity
  8
0
  6
Continuous
 62
     7
370
    25
100
AcDbLine
 10
50.5875742417
 20
102.5117450307
 30
0.0
 11
50.5875742417
 21
127.5117450307
 31
0.0
  0
LINE
  5
90
330
1F
100
AcDbEntity
  8
0
  6
Continuous
 62
     7
370
    25
100
AcDbLine
 10
0.5875742417
 20
102.5117450307
 30
0.0
 11
0.5875742417
 21
35.5117450307
 31
0.0
  0
LINE
  5
91
330
1F
100
AcDbEntity
  8
0
  6
Continuous
 62
     7
370
    25
100
AcDbLine
 10
50.5875742417
 20
35.5117450307
 30
0.0
 11
50.5875742417
 21
102.5117450307
 31
0.0
  0
CIRCLE
  5
92
330
1F
100
AcDbEntity
  8
0
  6
Continuous
 62
     7
370
    25
100
AcDbCircle
 10
25.5875742417
 20
127.5117450307
 30
0.0
 40
24.99999999999999
  0
CIRCLE
  5
93
330
1F
100
AcDbEntity
  8
0
  6
Continuous
 62
     7
370
    25
100
AcDbCircle
 10
25.5875742417
 20
127.5117450307
 30
0.0
 40
20.40000000000001
  0
LINE
  5
94
330
1F
100
AcDbEntity
  8
0
  6
Continuous
 62
     7
370
    25
100
AcDbLine
 10
0.5875742417
 20
35.5117450307
 30
0.0
 11
50.5875742417
 21
35.5117450307
 31
0.0
  0
LINE
  5
95
330
1F
100
AcDbEntity
  8
0
  6
Continuous
 62
     1
370
    25
100
AcDbLine
 10
25.5875742417
 20
102.5117450307
 30
0.0
 11
50.5875742417
 21
102.5117450307
 31
0.0
  0
LINE
  5
96
330
1F
100
AcDbEntity
  8
0
  6
Continuous
 62
     1
370
    25
100
AcDbLine
 10
0.5875742417
 20
102.5117450307
 30
0.0
 11
25.5875742417
 21
102.5117450307
 31
0.0
  0
INSERT
  5
A2
330
1F
100
AcDbEntity
  8
FORMAT
 62
     7
100
AcDbBlockReference
  2
SW_CENTERMARKSYMBOL_0
 10
25.5875742417
 20
127.5117450307
 30
0.0
  0
LINE
  5
A3
330
1F
100
AcDbEntity
  8
0
  6
Continuous
 62
     7
370
    25
100
AcDbLine
 10
218.9812701254
 20
226.4845512666
 30
0.0
 11
151.9812701254
 21
226.4845512666
 31
0.0
  0
LINE
  5
A4
330
1F
100
AcDbEntity
  8
0
  6
Continuous
 62
     7
370
    25
100
AcDbLine
 10
151.9812701254
 20
176.4845512666
 30
0.0
 11
218.9812701254
 21
176.4845512666
 31
0.0
  0
LINE
  5
A5
330
1F
100
AcDbEntity
  8
0
  6
Continuous
 62
     7
370
    25
100
AcDbLine
 10
151.9812701254
 20
226.4845512666
 30
0.0
 11
126.9812701254
 21
226.4845512666
 31
0.0
  0
LINE
  5
A6
330
1F
100
AcDbEntity
  8
0
  6
Continuous
 62
     7
370
    25
100
AcDbLine
 10
126.9812701254
 20
176.4845512666
 30
0.0
 11
151.9812701254
 21
176.4845512666
 31
0.0
  0
CIRCLE
  5
A7
330
1F
100
AcDbEntity
  8
0
  6
Continuous
 62
     7
370
    25
100
AcDbCircle
 10
126.9812701254
 20
201.4845512666
 30
0.0
 40
20.40000000000001
  0
CIRCLE
  5
A8
330
1F
100
AcDbEntity
  8
0
  6
Continuous
 62
     7
370
    25
100
AcDbCircle
 10
126.9812701254
 20
201.4845512666
 30
0.0
 40
25.0
  0
LINE
  5
A9
330
1F
100
AcDbEntity
  8
0
  6
Continuous
 62
     7
370
    25
100
AcDbLine
 10
218.9812701254
 20
226.4845512666
 30
0.0
 11
218.9812701254
 21
176.4845512666
 31
0.0
  0
LINE
  5
AA
330
1F
100
AcDbEntity
  8
0
  6
Continuous
 62
     1
370
    25
100
AcDbLine
 10
151.9812701254
 20
201.4845512666
 30
0.0
 11
151.9812701254
 21
176.4845512666
 31
0.0
  0
LINE
  5
AB
330
1F
100
AcDbEntity
  8
0
  6
Continuous
 62
     1
370
    25
100
AcDbLine
 10
151.9812701254
 20
226.4845512666
 30
0.0
 11
151.9812701254
 21
201.4845512666
 31
0.0
  0
INSERT
  5
B7
330
1F
100
AcDbEntity
  8
FORMAT
 62
     7
100
AcDbBlockReference
  2
SW_CENTERMARKSYMBOL_1
 10
126.9812701254
 20
201.4845512666
 30
0.0
  0
LINE
  5
B8
330
1F
100
AcDbEntity
  8
0
  6
Continuous
 62
     7
370
    25
100
AcDbLine
 10
253.7250300988
 20
102.5117450307
 30
0.0
 11
253.7250300988
 21
35.5117450307
 31
0.0
  0
LINE
  5
B9
330
1F
100
AcDbEntity
  8
0
  6
Continuous
 62
     7
370
    25
100
AcDbLine
 10
303.7250300988
 20
35.5117450307
 30
0.0
 11
303.7250300988
 21
102.5117450307
 31
0.0
  0
LINE
  5
BA
330
1F
100
AcDbEntity
  8
0
  6
Continuous
 62
     7
370
    25
100
AcDbLine
 10
303.7250300988
 20
102.5117450307
 30
0.0
 11
303.7250300988
 21
127.5117450307
 31
0.0
  0
LINE
  5
BB
330
1F
100
AcDbEntity
  8
0
  6
Continuous
 62
     7
370
    25
100
AcDbLine
 10
253.7250300988
 20
127.5117450307
 30
0.0
 11
253.7250300988
 21
102.5117450307
 31
0.0
  0
LINE
  5
BC
330
1F
100
AcDbEntity
  8
0
  6
Continuous
 62
     7
370
    25
100
AcDbLine
 10
253.7250300988
 20
35.5117450307
 30
0.0
 11
303.7250300988
 21
35.5117450307
 31
0.0
  0
ARC
  5
BD
330
1F
100
AcDbEntity
  8
0
  6
Continuous
 62
     7
370
    25
100
AcDbCircle
 10
278.7250300988
 20
127.5117450307
 30
0.0
 40
25.0
100
AcDbArc
 50
0.0
 51
180.0
  0
LINE
  5
BE
330
1F
100
AcDbEntity
  8
0
  6
Continuous
 62
     1
370
    25
100
AcDbLine
 10
253.7250300988
 20
102.5117450307
 30
0.0
 11
303.7250300988
 21
102.5117450307
 31
0.0
  0
INSERT
  5
CA
330
1F
100
AcDbEntity
  8
FORMAT
 62
     7
100
AcDbBlockReference
  2
SW_CENTERMARKSYMBOL_2
 10
278.7250300988
 20
127.5117450307
 30
0.0
  0
LINE
  5
CB
330
1F
100
AcDbEntity
  8
0
  6
Continuous
 62
     7
370
    25
100
AcDbLine
 10
126.9812701254
 20
-63.7870606577
 30
0.0
 11
151.9812701254
 21
-63.7870606577
 31
0.0
  0
LINE
  5
CC
330
1F
100
AcDbEntity
  8
0
  6
Continuous
 62
     7
370
    25
100
AcDbLine
 10
151.9812701254
 20
-13.7870606577
 30
0.0
 11
126.9812701254
 21
-13.7870606577
 31
0.0
  0
LINE
  5
CD
330
1F
100
AcDbEntity
  8
0
  6
Continuous
 62
     7
370
    25
100
AcDbLine
 10
218.9812701254
 20
-13.7870606577
 30
0.0
 11
151.9812701254
 21
-13.7870606577
 31
0.0
  0
LINE
  5
CE
330
1F
100
AcDbEntity
  8
0
  6
Continuous
 62
     7
370
    25
100
AcDbLine
 10
151.9812701254
 20
-63.7870606577
 30
0.0
 11
218.9812701254
 21
-63.7870606577
 31
0.0
  0
ARC
  5
CF
330
1F
100
AcDbEntity
  8
0
  6
Continuous
 62
     7
370
    25
100
AcDbCircle
 10
126.9812701254
 20
-38.7870606577
 30
0.0
 40
25.0
100
AcDbArc
 50
90.0
 51
270.0
  0
LINE
  5
D0
330
1F
100
AcDbEntity
  8
0
  6
Continuous
 62
     7
370
    25
100
AcDbLine
 10
218.9812701254
 20
-13.7870606577
 30
0.0
 11
218.9812701254
 21
-63.7870606577
 31
0.0
  0
LINE
  5
D1
330
1F
100
AcDbEntity
  8
0
  6
Continuous
 62
     1
370
    25
100
AcDbLine
 10
151.9812701254
 20
-13.7870606577
 30
0.0
 11
151.9812701254
 21
-63.7870606577
 31
0.0
  0
INSERT
  5
DD
330
1F
100
AcDbEntity
  8
FORMAT
 62
     7
100
AcDbBlockReference
  2
SW_CENTERMARKSYMBOL_3
 10
126.9812701254
 20
-38.7870606577
 30
0.0
  0
LINE
  5
DE
330
1F
100
AcDbEntity
  8
0
  6
Continuous
 62
     7
370
    25
100
AcDbLine
 10
331.934587796
 20
22.3764980704
 30
0.0
 11
284.5584334565
 21
-4.9731736756
 31
0.0
  0
LINE
  5
DF
330
1F
100
AcDbEntity
  8
0
  6
Continuous
 62
     7
370
    25
100
AcDbLine
 10
309.5564017724
 20
-48.2756167947
 30
0.0
 11
356.9325561119
 21
-20.9259450486
 31
0.0
  0
LINE
  5
E0
330
1F
100
AcDbEntity
  8
0
  6
Continuous
 62
     7
370
    25
100
AcDbLine
 10
254.3797480848
 20
-57.2430169301
 30
0.0
 11
254.3797480848
 21
-111.9512513264
 31
0.0
  0
LINE
  5
E1
330
1F
100
AcDbEntity
  8
0
  6
Continuous
 62
     7
370
    25
100
AcDbLine
 10
304.3797480848
 20
-111.9512513264
 30
0.0
 11
304.3797480848
 21
-57.2430169301
 31
0.0
  0
SPLINE
  5
E2
330
1F
100
AcDbEntity
  8
0
  6
Continuous
 62
     7
370
    25
100
AcDbSpline
210
0.0
220
0.0
230
1.0
 70
     8
 71
     3
 72
    35
 73
    31
 74
     0
 42
0.00000001
 43
0.00000001
 40
0.0
 40
0.0
 40
0.0
 40
0.0
 40
0.0235796990327484
 40
0.0598054405984171
 40
0.0961335965653565
 40
0.1326504563964134
 40
0.1692745353235204
 40
0.2059164067274723
 40
0.2425232445666232
 40
0.2790606683175798
 40
0.3155104053869821
 40
0.3518682737832788
 40
0.3881415879033314
 40
0.4243465530102712
 40
0.4605059444539319
 40
0.4966471674784112
 40
0.5328006677651224
 40
0.5689942167616001
 40
0.6052541652016382
 40
0.6416129010564154
 40
0.6781011282473183
 40
0.7147462556728824
 40
0.7515703685487503
 40
0.7885876723291726
 40
0.8258013917374594
 40
0.8632002862597689
 40
0.9007552337618114
 40
0.9384167085982182
 40
0.9760871869191932
 40
1.0
 40
1.0
 40
1.0
 40
1.0
 10
284.5584334564637
 20
-4.973173675636863
 30
0.0
 10
284.1458096526987
 20
-5.2162357121434
 30
0.0
 10
283.0992675254528
 20
-5.832716531760054
 30
0.0
 10
281.4551422955736
 20
-6.902795516005297
 30
0.0
 10
279.6321820727632
 20
-8.19710196955907
 30
0.0
 10
277.8496967674037
 20
-9.580190484024191
 30
0.0
 10
276.1101627772355
 20
-11.04656946269882
 30
0.0
 10
274.4191751393739
 20
-12.59067946448193
 30
0.0
 10
272.7811208939346
 20
-14.20638004758801
 30
0.0
 10
271.1992951944624
 20
-15.88829428159717
 30
0.0
 10
269.6762548867709
 20
-17.63145922954169
 30
0.0
 10
268.2140244829679
 20
-19.43141468320853
 30
0.0
 10
266.8142549972856
 20
-21.28418323527247
 30
0.0
 10
265.478378144389
 20
-23.18623292377058
 30
0.0
 10
264.2077337813523
 20
-25.13441804474439
 30
0.0
 10
263.0036719840198
 20
-27.12591686558343
 30
0.0
 10
261.8676784688656
 20
-29.15808812438237
 30
0.0
 10
260.8014405516673
 20
-31.22836673209165
 30
0.0
 10
259.8068119001817
 20
-33.33432574057036
 30
0.0
 10
258.8858193837507
 20
-35.47371003253592
 30
0.0
 10
258.0407037160732
 20
-37.64441227628247
 30
0.0
 10
257.2740193280856
 20
-39.84425213029869
 30
0.0
 10
256.5886567176157
 20
-42.07084873508817
 30
0.0
 10
255.9878692380227
 20
-44.32145596771637
 30
0.0
 10
255.4751913456852
 20
-46.59277003639147
 30
0.0
 10
255.0546115537165
 20
-48.88068281948329
 30
0.0
 10
254.7295573236929
 20
-51.18015088043269
 30
0.0
 10
254.5060877196067
 20
-53.48414573893801
 30
0.0
 10
254.3952476411028
 20
-55.50665686350138
 30
0.0
 10
254.3840832295638
 20
-56.75736610465046
 30
0.0
 10
254.3797480847508
 20
-57.2430169300815
 30
0.0
  0
SPLINE
  5
E3
330
1F
100
AcDbEntity
  8
0
  6
Continuous
 62
     7
370
    25
100
AcDbSpline
210
0.0
220
0.0
230
1.0
 70
     8
 71
     3
 72
    30
 73
    26
 74
     0
 42
0.00000001
 43
0.00000001
 40
0.0
 40
0.0
 40
0.0
 40
0.0
 40
0.038387416054554
 40
0.0835474408478192
 40
0.1273648019692136
 40
0.1703120457457607
 40
0.2127960825045506
 40
0.2551484913612606
 40
0.29761898655332
 40
0.3403354516155372
 40
0.3833853581989286
 40
0.4268042884307649
 40
0.470565082327148
 40
0.5145942832433267
 40
0.5587915362871749
 40
0.6030194135926441
 40
0.6471881591525303
 40
0.6912615629090089
 40
0.7352707218575228
 40
0.7793305222611854
 40
0.8236412235560864
 40
0.8684232680360668
 40
0.9140417793787462
 40
0.9609476927161348
 40
1.0
 40
1.0
 40
1.0
 40
1.0
 10
304.3798767929517
 20
-57.25994868404036
 30
0.0
 10
304.3799136201475
 20
-57.25679610510255
 30
0.0
 10
304.3799937718815
 20
-57.24993474454757
 30
0.0
 10
304.3908140744383
 20
-57.12187187184466
 30
0.0
 10
304.421144056772
 20
-56.90272997252562
 30
0.0
 10
304.4779416876963
 20
-56.59460576092631
 30
0.0
 10
304.5671897784356
 20
-56.20763440563913
 30
0.0
 10
304.6939367675805
 20
-55.74876940385479
 30
0.0
 10
304.8618578243838
 20
-55.22747177940501
 30
0.0
 10
305.0730703706158
 20
-54.65444552307534
 30
0.0
 10
305.3279122349803
 20
-54.04188568285475
 30
0.0
 10
305.6248774636269
 20
-53.4029893248147
 30
0.0
 10
305.9604458134307
 20
-52.75185809169476
 30
0.0
 10
306.3289920718609
 20
-52.10317081563358
 30
0.0
 10
306.7227670806691
 20
-51.47178126643684
 30
0.0
 10
307.1321810376532
 20
-50.87191132651866
 30
0.0
 10
307.5462175304539
 20
-50.31641244377561
 30
0.0
 10
307.953027836824
 20
-49.81605608040012
 30
0.0
 10
308.3403094225924
 20
-49.37927784820484
 30
0.0
 10
308.6957801216165
 20
-49.01196344014828
 30
0.0
 10
309.0069952994893
 20
-48.71778851281466
 30
0.0
 10
309.2631351394945
 20
-48.49717970597676
 30
0.0
 10
309.4503014392665
 20
-48.35059539918104
 30
0.0
 10
309.5623068988119
 20
-48.27249639942212
 30
0.0
 10
309.5678939583811
 20
-48.26921556797839
 30
0.0
 10
309.570432256237
 20
-48.26772502947301
 30
0.0
  0
LWPOLYLINE
  5
E4
330
1F
100
AcDbEntity
  8
0
  6
Continuous
 62
     7
370
    25
100
AcDbPolyline
 90
       92
 70
   128
 43
0.0
 10
326.7559024242
 20
10.9303779087
 10
326.7980234971
 20
9.4977098043
 10
326.9241859895
 20
8.0232370603
 10
327.1337886798
 20
6.5139862109
 10
327.4258327156
 20
4.9771495235
 10
327.7989263742
 20
3.420050725
 10
328.2512916944
 20
1.8501101001
 10
328.7807729494
 20
0.2748091309
 10
329.3848469198
 20
-1.2983451561
 10
330.0606349183
 20
-2.8618559642
 10
330.804916507
 20
-4.4082724526
 10
331.6141448455
 20
-5.9302252423
 10
332.484463592
 20
-7.4204615353
 10
333.4117252815
 20
-8.8718796769
 10
334.3915110897
 20
-10.2775629988
 10
335.4191518911
 20
-11.6308127798
 10
336.4897505092
 20
-12.9251801684
 10
337.5982050541
 20
-14.1544969145
 10
338.7392332351
 20
-15.312904764
 10
339.9073975332
 20
-16.394883376
 10
341.0971311137
 20
-17.3952766296
 10
342.3027643542
 20
-18.3093171955
 10
343.5185518632
 20
-19.1326492541
 10
344.7386998597
 20
-19.8613492531
 10
345.9573937828
 20
-20.4919446053
 10
347.1688260009
 20
-21.0214302366
 10
348.3672234878
 20
-21.4472829068
 10
349.5468753338
 20
-21.7674732341
 10
350.7021599607
 20
-21.9804753657
 10
351.8275719109
 20
-22.0852742495
 10
352.9177480842
 20
-22.081370471
 10
353.9674932945
 20
-21.9687826336
 10
354.9718050279
 20
-21.7480472696
 10
355.9258972817
 20
-21.4202162834
 10
356.8252233716
 20
-20.9868519391
 10
357.6654975995
 20
-20.450019415
 10
358.4427156758
 20
-19.8122769627
 10
359.1531738026
 20
-19.0766637153
 10
359.7934863233
 20
-18.246685205
 10
360.3606018572
 20
-17.3262966574
 10
360.8518178405
 20
-16.3198841429
 10
361.2647934052
 20
-15.2322436756
 10
361.5975605349
 20
-14.0685583576
 10
361.8485334425
 20
-12.8343736794
 10
362.016516128
 20
-11.535571093
 10
362.1007080772
 20
-10.1783399842
 10
362.1007080772
 20
-8.7691481773
 10
362.016516128
 20
-7.3147111131
 10
361.8485334425
 20
-5.8219598464
 10
361.5975605349
 20
-4.2980080169
 10
361.2647934052
 20
-2.750117949
 10
360.8518178405
 20
-1.1856660439
 10
360.3606018572
 20
0.3878923728
 10
359.7934863233
 20
1.9630585785
 10
359.1531738026
 20
3.532326189
 10
358.4427156758
 20
5.0882169295
 10
357.6654975995
 20
6.623316272
 10
356.8252233716
 20
8.1303087691
 10
355.9258972817
 20
9.6020129152
 10
354.9718050279
 20
11.0314153699
 10
353.9674932945
 20
12.4117043796
 10
352.9177480842
 20
13.7363022385
 10
351.8275719109
 20
14.9988966346
 10
350.7021599607
 20
16.1934707307
 10
349.5468753338
 20
17.3143318371
 10
348.3672234878
 20
18.3561385403
 10
347.1688260009
 20
19.3139261569
 10
345.9573937828
 20
20.1831303927
 10
344.7386998597
 20
20.9596090937
 10
343.5185518632
 20
21.6396619852
 10
342.3027643542
 20
22.2200483056
 10
341.0971311137
 20
22.6980022498
 10
339.9073975332
 20
23.0712461494
 10
338.739233235
 20
23.3380013275
 10
337.5982050541
 20
23.496996574
 10
336.4897505092
 20
23.5474742042
 10
335.4191518911
 20
23.4891936693
 10
334.3915110897
 20
23.3224327024
 10
333.4117252815
 20
23.0479859957
 10
332.484463592
 20
22.6671614125
 10
331.6141448455
 20
22.1817737555
 10
330.804916507
 20
21.5941361178
 10
330.0606349183
 20
20.9070488606
 10
329.3848469198
 20
20.1237862673
 10
328.7807729494
 20
19.248080941
 10
328.2512916944
 20
18.2841060164
 10
327.7989263742
 20
17.236455273
 10
327.4258327156
 20
16.1101212435
 10
327.1337886798
 20
14.9104714228
 10
326.9241859895
 20
13.6432226883
 10
326.7980234971
 20
12.3144140575
 10
326.7559024242
 20
10.9303779087
  0
LWPOLYLINE
  5
E5
330
1F
100
AcDbEntity
  8
0
  6
Continuous
 62
     7
370
    25
100
AcDbPolyline
 90
       83
 70
   128
 43
0.0
 10
330.0085936177
 20
9.0526392515
 10
330.0509193721
 20
10.3033191304
 10
330.1776482508
 20
11.4977912467
 10
330.3880365584
 20
12.6290459631
 10
330.6808496527
 20
13.6904446269
 10
331.05436919
 20
14.6757585289
 10
331.5064032091
 20
15.5792054552
 10
332.0342989947
 20
16.3954836201
 10
332.6349586443
 20
17.1198027787
 10
333.3048572484
 20
17.7479123382
 10
334.0400635755
 20
18.2761263018
 10
334.8362631425
 20
18.7013449001
 10
335.6887835339
 20
19.0210727812
 10
336.5926218209
 20
19.2334336548
 10
337.5424739211
 20
19.3371813029
 10
338.5327657247
 20
19.3317068929
 10
339.5576858056
 20
19.2170425509
 10
340.6112195252
 20
18.9938611729
 10
341.6871843288
 20
18.6634724759
 10
342.779266027
 20
18.2278153121
 10
343.8810558502
 20
17.6894462911
 10
344.9860880576
 20
17.0515247763
 10
346.0878778808
 20
16.3177943449
 10
347.179959579
 20
15.4925608187
 10
348.2559243826
 20
14.5806669962
 10
349.3094581022
 20
13.587464233
 10
350.3343781831
 20
12.5187810378
 10
351.3246699867
 20
11.3808888686
 10
352.2745220869
 20
10.1804653291
 10
353.178360374
 20
8.9245549819
 10
354.0308807653
 20
7.6205280083
 10
354.8270803324
 20
6.2760369571
 10
355.5622866595
 20
4.8989718365
 10
356.2321852635
 20
3.4974138121
 10
356.8328449132
 20
2.0795877838
 10
357.3607406987
 20
0.6538141184
 10
357.8127747178
 20
-0.7715401773
 10
358.1862942551
 20
-2.1881105575
 10
358.4791073494
 20
-3.5875840239
 10
358.689495657
 20
-4.9617479098
 10
358.8162245358
 20
-6.302538075
 10
358.8585502901
 20
-7.6020862297
 10
358.8162245358
 20
-8.8527661086
 10
358.689495657
 20
-10.0472382249
 10
358.4791073494
 20
-11.1784929413
 10
358.1862942551
 20
-12.2398916051
 10
357.8127747178
 20
-13.2252055071
 10
357.3607406987
 20
-14.1286524334
 10
356.8328449132
 20
-14.9449305983
 10
356.2321852635
 20
-15.6692497569
 10
355.5622866595
 20
-16.2973593163
 10
354.8270803324
 20
-16.82557328
 10
354.0308807653
 20
-17.2507918783
 10
353.178360374
 20
-17.5705197594
 10
352.2745220869
 20
-17.782880633
 10
351.3246699867
 20
-17.8866282811
 10
350.3343781831
 20
-17.8811538711
 10
349.3094581022
 20
-17.7664895291
 10
348.2559243826
 20
-17.5433081511
 10
347.179959579
 20
-17.2129194541
 10
346.0878778808
 20
-16.7772622903
 10
344.9860880576
 20
-16.2388932693
 10
343.8810558502
 20
-15.6009717545
 10
342.779266027
 20
-14.8672413231
 10
341.6871843288
 20
-14.0420077969
 10
340.6112195252
 20
-13.1301139744
 10
339.5576858056
 20
-12.1369112112
 10
338.5327657247
 20
-11.068228016
 10
337.5424739211
 20
-9.9303358468
 10
336.5926218209
 20
-8.7299123073
 10
335.6887835339
 20
-7.4740019601
 10
334.8362631425
 20
-6.1699749865
 10
334.0400635755
 20
-4.8254839353
 10
333.3048572484
 20
-3.4484188147
 10
332.6349586443
 20
-2.0468607903
 10
332.0342989947
 20
-0.629034762
 10
331.5064032091
 20
0.7967389034
 10
331.05436919
 20
2.2220931991
 10
330.6808496527
 20
3.6386635793
 10
330.3880365584
 20
5.0381370457
 10
330.1776482508
 20
6.4123009316
 10
330.0509193721
 20
7.7530910968
 10
330.0085936177
 20
9.0526392515
  0
LWPOLYLINE
  5
E6
330
1F
100
AcDbEntity
  8
0
  6
Continuous
 62
     7
370
    25
100
AcDbPolyline
 90
       92
 70
   128
 43
0.0
 10
261.7020785551
 20
-101.7461499286
 10
262.9638022792
 20
-101.0664042822
 10
264.3037554608
 20
-100.4385298889
 10
265.7155526129
 20
-99.8655188561
 10
267.192465879
 20
-99.3501018423
 10
268.7274570949
 20
-98.8947350443
 10
270.3132113284
 20
-98.5015884924
 10
271.9421717384
 20
-98.1725357088
 10
273.6065755867
 20
-97.9091447798
 10
275.2984912311
 20
-97.7126708834
 10
277.009855923
 20
-97.5840503069
 10
278.7325142303
 20
-97.5238959861
 10
280.4582569016
 20
-97.5324945837
 10
282.1788599873
 20
-97.6098051234
 10
283.8861240301
 20
-97.7554591853
 10
285.5719131393
 20
-97.9687626616
 10
287.2281937621
 20
-98.2486990639
 10
288.8470729671
 20
-98.5939343678
 10
290.4208360576
 20
-99.0028233699
 10
291.9419833359
 20
-99.4734175279
 10
293.4032658424
 20
-100.0034742464
 10
294.7977199005
 20
-100.5904675636
 10
296.1187003015
 20
-101.2316001891
 10
297.3599119724
 20
-101.923816834
 10
298.5154399743
 20
-102.6638187708
 10
299.5797776899
 20
-103.4480795531
 10
300.5478530655
 20
-104.2728618212
 10
301.4150527809
 20
-105.1342351121
 10
302.1772442346
 20
-106.0280945897
 10
302.8307952372
 20
-106.9501806065
 10
303.3725913206
 20
-107.8960990027
 10
303.8000505797
 20
-108.8613420465
 10
304.1111359764
 20
-109.8413099152
 10
304.3043650473
 20
-110.8313326155
 10
304.3788169677
 20
-111.8266922385
 10
304.3341369403
 20
-112.8226454423
 10
304.1705378859
 20
-113.8144460563
 10
303.8887994285
 20
-114.7973676989
 10
303.49026418
 20
-115.7667263009
 10
302.9768313425
 20
-116.7179024271
 10
302.3509476571
 20
-117.64636329
 10
301.6155957448
 20
-118.5476843509
 10
300.7742798923
 20
-119.4175704045
 10
299.8310093527
 20
-120.2518760475
 10
298.7902792396
 20
-121.0466254336
 10
297.6570491061
 20
-121.7980312201
 10
296.4367193098
 20
-122.5025126162
 10
295.135105278
 20
-123.1567124472
 10
293.7584097941
 20
-123.757513153
 10
292.3131934392
 20
-124.3020516447
 10
290.8063433273
 20
-124.7877329484
 10
289.2450402855
 20
-125.2122425714
 10
287.6367246336
 20
-125.5735575322
 10
285.9890607283
 20
-125.8699560003
 10
284.3099004384
 20
-126.100025502
 10
282.6072457274
 20
-126.2626696515
 10
280.8892105203
 20
-126.3571133754
 10
279.1639820373
 20
-126.3829066061
 10
277.4397817778
 20
-126.3399264273
 10
275.7248263411
 20
-126.2283776591
 10
274.0272882711
 20
-126.0487918821
 10
272.3552571095
 20
-125.8020249045
 10
270.7167008463
 20
-125.4892526831
 10
269.1194279484
 20
-125.11196572
 10
267.5710501485
 20
-124.6719619595
 10
266.0789461719
 20
-124.1713382199
 10
264.6502265735
 20
-123.6124802013
 10
263.2916998529
 20
-122.9980511165
 10
262.0098400087
 20
-122.3309790001
 10
260.8107556866
 20
-121.6144427544
 10
259.7001610695
 20
-120.8518570009
 10
258.6833486466
 20
-120.0468558081
 10
257.7651639922
 20
-119.2032753732
 10
256.9499826741
 20
-118.3251357412
 10
256.2416894027
 20
-117.4166216473
 10
255.643659518
 20
-116.4820625749
 10
255.1587429046
 20
-115.5259121236
 10
254.7892504111
 20
-114.5527267857
 10
254.5369428374
 20
-113.5671442325
 10
254.4030225441
 20
-112.5738612138
 10
254.3881277224
 20
-111.5776111754
 10
254.4923293528
 20
-110.5831417025
 10
254.7151308671
 20
-109.595191895
 10
255.0554705146
 20
-108.6184697836
 10
255.511726422
 20
-107.657629894
 10
256.0817243221
 20
-106.7172510658
 10
256.7627479153
 20
-105.8018146324
 10
257.5515518139
 20
-104.9156830653
 10
258.4443770084
 20
-104.063079185
 10
259.4369687799
 20
-103.2480660371
 10
260.5245969767
 20
-102.4745275306
 10
261.7020785551
 20
-101.7461499286
  0
LWPOLYLINE
  5
E7
330
1F
100
AcDbEntity
  8
0
  6
Continuous
 62
     7
370
    25
100
AcDbPolyline
 90
       83
 70
   128
 43
0.0
 10
264.9547697485
 20
-103.6238885858
 10
263.8928741891
 20
-104.2857761196
 10
262.9218617637
 20
-104.99264771
 10
262.0474307595
 20
-105.7403551533
 10
261.2747126852
 20
-106.524510605
 10
260.6082421578
 20
-107.3405123292
 10
260.0519302914
 20
-108.1835717031
 10
259.6090417451
 20
-109.0487413192
 10
259.2821755651
 20
-109.9309440182
 10
259.0732499321
 20
-110.8250026838
 10
258.9834909047
 20
-111.7256706243
 10
259.0134252248
 20
-112.627662362
 10
259.1628772256
 20
-113.5256846508
 10
259.4309698636
 20
-114.4144675389
 10
259.8161298645
 20
-115.2887952947
 10
260.3160969561
 20
-116.1435370154
 10
260.927937133
 20
-116.9736767367
 10
261.6480598735
 20
-117.7743428686
 10
262.4722392112
 20
-118.5408367839
 10
263.3956385339
 20
-119.2686603915
 10
264.4128389673
 20
-119.953542533
 10
265.5178711747
 20
-120.5914640478
 10
266.7042503877
 20
-121.1786813587
 10
267.9650144614
 20
-121.7117484411
 10
269.2927647309
 20
-122.1875370453
 10
270.6797094296
 20
-122.6032550546
 10
272.1177094146
 20
-122.9564628705
 10
273.5983259301
 20
-123.2450877289
 10
275.1128701297
 20
-123.4674358646
 10
276.6524540657
 20
-123.6222024502
 10
278.2080428476
 20
-123.7084792539
 10
279.7705076617
 20
-123.725759969
 10
281.3306793432
 20
-123.6739431855
 10
282.8794021843
 20
-123.5533329848
 10
284.4075876636
 20
-123.3646371556
 10
285.906267781
 20
-123.10896304
 10
287.3666476857
 20
-122.7878110354
 10
288.7801572876
 20
-122.4030657895
 10
290.1385015505
 20
-121.9569851403
 10
291.43370917
 20
-121.4521868665
 10
292.6581793528
 20
-120.891633325
 10
293.804726421
 20
-120.278614067
 10
294.8666219804
 20
-119.6167265332
 10
295.8376344058
 20
-118.9098549429
 10
296.71206541
 20
-118.1621474996
 10
297.4847834843
 20
-117.3779920478
 10
298.1512540117
 20
-116.5619903237
 10
298.7075658781
 20
-115.7189309498
 10
299.1504544244
 20
-114.8537613336
 10
299.4773206044
 20
-113.9715586346
 10
299.6862462374
 20
-113.077499969
 10
299.7760052648
 20
-112.1768320286
 10
299.7460709447
 20
-111.2748402908
 10
299.5966189439
 20
-110.376818002
 10
299.3285263059
 20
-109.488035114
 10
298.943366305
 20
-108.6137073582
 10
298.4433992134
 20
-107.7589656374
 10
297.8315590365
 20
-106.9288259162
 10
297.111436296
 20
-106.1281597842
 10
296.2872569583
 20
-105.361665869
 10
295.3638576356
 20
-104.6338422614
 10
294.3466572022
 20
-103.9489601198
 10
293.2416249948
 20
-103.311038605
 10
292.0552457818
 20
-102.7238212941
 10
290.7944817081
 20
-102.1907542118
 10
289.4667314386
 20
-101.7149656076
 10
288.0797867399
 20
-101.2992475983
 10
286.6417867549
 20
-100.9460397824
 10
285.1611702394
 20
-100.6574149239
 10
283.6466260398
 20
-100.4350667882
 10
282.1070421038
 20
-100.2803002026
 10
280.5514533219
 20
-100.194023399
 10
278.9889885078
 20
-100.1767426839
 10
277.4288168263
 20
-100.2285594674
 10
275.8800939852
 20
-100.3491696681
 10
274.3519085059
 20
-100.5378654973
 10
272.8532283885
 20
-100.7935396129
 10
271.3928484838
 20
-101.1146916175
 10
269.9793388819
 20
-101.4994368634
 10
268.620994619
 20
-101.9455175126
 10
267.3257869995
 20
-102.4503157864
 10
266.1013168167
 20
-103.0108693278
 10
264.9547697485
 20
-103.6238885858
  0
LWPOLYLINE
  5
E8
330
1F
100
AcDbEntity
  8
0
  6
Continuous
 62
     1
370
    25
100
AcDbPolyline
 90
       13
 70
   128
 43
0.0
 10
297.0574176144
 20
-47.0379155323
 10
298.2770202657
 20
-47.6933372963
 10
299.4908109549
 20
-48.2483559565
 10
300.6930054167
 20
-48.7003265965
 10
301.8778746469
 20
-49.0470953702
 10
303.0397722042
 20
-49.2870097665
 10
304.1731611175
 20
-49.4189264841
 10
305.2726402726
 20
-49.4422168797
 10
306.3329701505
 20
-49.3567699639
 10
307.3490977964
 20
-49.1629929304
 10
308.3161808995
 20
-48.8618092148
 10
309.2296108684
 20
-48.4546540947
 10
309.5564017724
 20
-48.2756167947
  0
LWPOLYLINE
  5
E9
330
1F
100
AcDbEntity
  8
0
  6
Continuous
 62
     1
370
    25
100
AcDbPolyline
 90
       36
 70
   128
 43
0.0
 10
284.5584334565
 20
-4.9731736756
 10
284.4500001492
 20
-5.0368663651
 10
283.6251259797
 20
-5.5991852179
 10
282.8642627968
 20
-6.2616987713
 10
282.1710364601
 20
-7.0212498464
 10
281.5487505089
 20
-7.8742188366
 10
281.000370419
 20
-8.8165409561
 10
280.5285094714
 20
-9.8437256109
 10
280.1354162982
 20
-10.9508777983
 10
279.8229641676
 20
-12.132721434
 10
279.5926420562
 20
-13.3836244948
 10
279.4455475537
 20
-14.697625858
 10
279.3823816325
 20
-16.0684637087
 10
279.4034453069
 20
-17.4896053803
 10
279.5086381989
 20
-18.9542784854
 10
279.6974590165
 20
-20.4555031899
 10
279.9690079426
 20
-21.9861254743
 10
280.3219909227
 20
-23.5388512263
 10
280.7547258322
 20
-25.1062810006
 10
281.2651504924
 20
-26.6809452807
 10
281.8508324971
 20
-28.255340074
 10
282.5089808049
 20
-29.8219626725
 10
283.2364590395
 20
-31.3733474059
 10
284.0298004357
 20
-32.9021012196
 10
284.8852243605
 20
-34.4009389054
 10
285.7986543293
 20
-35.8627178192
 10
286.7657374324
 20
-37.2804719188
 10
287.7818650784
 20
-38.6474449602
 10
288.8421949562
 20
-39.9571226944
 10
289.9416741113
 20
-41.2032639106
 10
291.0750630246
 20
-42.3799301784
 10
292.2369605819
 20
-43.4815141472
 10
293.4218298122
 20
-44.5027662676
 10
294.6240242739
 20
-45.4388198083
 10
295.8378149632
 20
-46.2852140479
 10
297.0574176144
 20
-47.0379155323
  0
LWPOLYLINE
  5
EA
330
1F
100
AcDbEntity
  8
0
  6
Continuous
 62
     1
370
    25
100
AcDbPolyline
 90
       13
 70
   128
 43
0.0
 10
297.0574176144
 20
-47.0379155323
 10
298.2348991928
 20
-47.7662931343
 10
299.3225273896
 20
-48.5398316408
 10
300.3151191611
 20
-49.3548447886
 10
301.2079443556
 20
-50.207448669
 10
301.9967482543
 20
-51.0935802361
 10
302.6777718474
 20
-52.0090166694
 10
303.2477697475
 20
-52.9493954976
 10
303.7040256549
 20
-53.9102353872
 10
304.0443653024
 20
-54.8869574986
 10
304.2671668167
 20
-55.8749073061
 10
304.3713684471
 20
-56.8693767791
 10
304.3797480848
 20
-57.2430169301
  0
LWPOLYLINE
  5
EB
330
1F
100
AcDbEntity
  8
0
  6
Continuous
 62
     1
370
    25
100
AcDbPolyline
 90
       36
 70
   128
 43
0.0
 10
254.3797480848
 20
-57.2430169301
 10
254.3806792018
 20
-57.1184578422
 10
254.4551311222
 20
-56.1230982192
 10
254.6483601931
 20
-55.1330755189
 10
254.9594455898
 20
-54.1531076502
 10
255.3869048489
 20
-53.1878646064
 10
255.9287009323
 20
-52.2419462101
 10
256.5822519349
 20
-51.3198601933
 10
257.3444433886
 20
-50.4260007157
 10
258.211643104
 20
-49.5646274249
 10
259.1797184796
 20
-48.7398451567
 10
260.2440561952
 20
-47.9555843744
 10
261.3995841971
 20
-47.2155824377
 10
262.640795868
 20
-46.5233657928
 10
263.961776269
 20
-45.8822331673
 10
265.3562303271
 20
-45.29523985
 10
266.8175128336
 20
-44.7651831316
 10
268.3386601119
 20
-44.2945889736
 10
269.9124232024
 20
-43.8856999714
 10
271.5313024074
 20
-43.5404646675
 10
273.1875830302
 20
-43.2605282652
 10
274.8733721394
 20
-43.047224789
 10
276.5806361822
 20
-42.9015707271
 10
278.3012392679
 20
-42.8242601873
 10
280.0269819392
 20
-42.8156615898
 10
281.7496402465
 20
-42.8758159106
 10
283.4610049384
 20
-43.004436487
 10
285.1529205828
 20
-43.2009103835
 10
286.8173244311
 20
-43.4643013124
 10
288.4462848411
 20
-43.793354096
 10
290.0320390746
 20
-44.186500648
 10
291.5670302905
 20
-44.6418674459
 10
293.0439435566
 20
-45.1572844597
 10
294.4557407087
 20
-45.7302954925
 10
295.7956938903
 20
-46.3581698859
 10
297.0574176144
 20
-47.0379155323
  0
ENDSEC
  0
SECTION
  2
OBJECTS
  0
DICTIONARY
  5
C
330
0
100
AcDbDictionary
281
     1
  3
ACAD_GROUP
350
D
  3
ACAD_LAYOUT
350
1A
  3
ACAD_MLINESTYLE
350
17
  3
ACAD_PLOTSETTINGS
350
19
  3
ACAD_PLOTSTYLENAME
350
E
  3
ACAD_SCALELIST
350
47
  3
DWGPROPS
350
EC
  0
DICTIONARY
  5
D
102
{ACAD_REACTORS
330
C
102
}
330
C
100
AcDbDictionary
281
     1
  0
DICTIONARY
  5
1A
102
{ACAD_REACTORS
330
C
102
}
330
C
100
AcDbDictionary
281
     1
  3
Layout1
350
1E
  3
Layout2
350
26
  3
Model
350
22
  0
DICTIONARY
  5
17
102
{ACAD_REACTORS
330
C
102
}
330
C
100
AcDbDictionary
281
     1
  3
Standard
350
18
  0
DICTIONARY
  5
19
102
{ACAD_REACTORS
330
C
102
}
330
C
100
AcDbDictionary
281
     1
  0
ACDBDICTIONARYWDFLT
  5
E
102
{ACAD_REACTORS
330
C
102
}
330
C
100
AcDbDictionary
281
     1
  3
Normal
350
F
100
AcDbDictionaryWithDefault
340
F
  0
DICTIONARY
  5
47
102
{ACAD_REACTORS
330
C
102
}
330
C
100
AcDbDictionary
281
     1
  3
A0
350
48
  3
A1
350
49
  3
A2
350
4A
  3
A3
350
4B
  3
A4
350
4C
  3
A5
350
4D
  3
A6
350
4E
  3
A7
350
4F
  3
A8
350
50
  3
A9
350
51
  3
B0
350
52
  3
B1
350
53
  3
B2
350
54
  3
B3
350
55
  3
B4
350
56
  3
B5
350
57
  3
B6
350
58
  3
B7
350
59
  3
B8
350
5A
  3
B9
350
5B
  3
C0
350
5C
  3
C1
350
5D
  3
C2
350
5E
  3
C3
350
5F
  3
C4
350
60
  3
C5
350
61
  3
C6
350
62
  3
C7
350
63
  3
C8
350
64
  3
C9
350
65
  3
D0
350
66
  3
D1
350
67
  3
D2
350
68
  0
XRECORD
  5
EC
102
{ACAD_REACTORS
330
C
102
}
330
C
100
AcDbXrecord
280
     1
  1
DWGPROPS COOKIE
  2

  3

  4

  6

  7

  8
b.kav
  9

300
=
301
=
302
=
303
=
304
=
305
=
306
=
307
=
308
=
309
=
 40
0.0
 41
2459935.574307546
 42
2459935.574307731
  1

 90
        0
  0
LAYOUT
  5
1E
102
{ACAD_REACTORS
330
1A
102
}
330
1A
100
AcDbPlotSettings
  1

  2
none_device
  4

  6

 40
0.0
 41
0.0
 42
0.0
 43
0.0
 44
0.0
 45
0.0
 46
0.0
 47
0.0
 48
0.0
 49
0.0
140
0.0
141
0.0
142
1.0
143
1.0
 70
   688
 72
     1
 73
     0
 74
     5
  7

 75
    16
147
1.0
148
0.0
149
0.0
100
AcDbLayout
  1
Layout1
 70
     1
 71
     1
 10
0.0
 20
0.0
 11
420.0
 21
297.0
 12
0.0
 22
0.0
 32
0.0
 14
1.0000000000E+20
 24
1.0000000000E+20
 34
1.0000000000E+20
 15
-1.0000000000E+20
 25
-1.0000000000E+20
 35
-1.0000000000E+20
146
0.0
 13
0.0
 23
0.0
 33
0.0
 16
1.0
 26
0.0
 36
0.0
 17
0.0
 27
1.0
 37
0.0
 76
     0
330
1B
  0
LAYOUT
  5
26
102
{ACAD_REACTORS
330
1A
102
}
330
1A
100
AcDbPlotSettings
  1

  2
none_device
  4

  6

 40
0.0
 41
0.0
 42
0.0
 43
0.0
 44
0.0
 45
0.0
 46
0.0
 47
0.0
 48
0.0
 49
0.0
140
0.0
141
0.0
142
1.0
143
1.0
 70
   688
 72
     1
 73
     0
 74
     5
  7

 75
    16
147
1.0
148
0.0
149
0.0
100
AcDbLayout
  1
Layout2
 70
     1
 71
     2
 10
0.0
 20
0.0
 11
0.0
 21
0.0
 12
0.0
 22
0.0
 32
0.0
 14
0.0
 24
0.0
 34
0.0
 15
0.0
 25
0.0
 35
0.0
146
0.0
 13
0.0
 23
0.0
 33
0.0
 16
1.0
 26
0.0
 36
0.0
 17
0.0
 27
1.0
 37
0.0
 76
     0
330
23
  0
LAYOUT
  5
22
102
{ACAD_REACTORS
330
1A
102
}
330
1A
100
AcDbPlotSettings
  1

  2
none_device
  4
Letter_(8.50_x_11.00_Inches)
  6

 40
6.35
 41
6.35
 42
6.35000508
 43
6.35000508
 44
215.9
 45
279.4
 46
0.0
 47
0.0
 48
0.0
 49
0.0
140
0.0
141
0.0
142
1.0
143
1.0
 70
  1712
 72
     1
 73
     0
 74
     0
  7

 75
     0
147
1.0
148
0.0
149
0.0
100
AcDbLayout
  1
Model
 70
     1
 71
     0
 10
0.0
 20
0.0
 11
279.4
 21
215.9
 12
0.0
 22
0.0
 32
0.0
 14
0.0
 24
0.0
 34
0.0
 15
279.4
 25
215.9
 35
0.0
146
0.0
 13
0.0
 23
0.0
 33
0.0
 16
1.0
 26
0.0
 36
0.0
 17
0.0
 27
1.0
 37
0.0
 76
     0
330
1F
331
29
  0
MLINESTYLE
  5
18
102
{ACAD_REACTORS
330
17
102
}
330
17
100
AcDbMlineStyle
  2
Standard
 70
     0
  3

 62
   256
 51
90.0
 52
90.0
 71
     2
 49
0.5
 62
   256
  6
BYLAYER
 49
-0.5
 62
   256
  6
BYLAYER
  0
ACDBPLACEHOLDER
  5
F
102
{ACAD_REACTORS
330
E
102
}
330
E
  0
SCALE
  5
48
102
{ACAD_REACTORS
330
47
102
}
330
47
100
AcDbScale
 70
     0
300
1:1
140
1.0
141
1.0
290
     1
  0
SCALE
  5
49
102
{ACAD_REACTORS
330
47
102
}
330
47
100
AcDbScale
 70
     0
300
1:2
140
1.0
141
2.0
290
     0
  0
SCALE
  5
4A
102
{ACAD_REACTORS
330
47
102
}
330
47
100
AcDbScale
 70
     0
300
1:4
140
1.0
141
4.0
290
     0
  0
SCALE
  5
4B
102
{ACAD_REACTORS
330
47
102
}
330
47
100
AcDbScale
 70
     0
300
1:5
140
1.0
141
5.0
290
     0
  0
SCALE
  5
4C
102
{ACAD_REACTORS
330
47
102
}
330
47
100
AcDbScale
 70
     0
300
1:8
140
1.0
141
8.0
290
     0
  0
SCALE
  5
4D
102
{ACAD_REACTORS
330
47
102
}
330
47
100
AcDbScale
 70
     0
300
1:10
140
1.0
141
10.0
290
     0
  0
SCALE
  5
4E
102
{ACAD_REACTORS
330
47
102
}
330
47
100
AcDbScale
 70
     0
300
1:16
140
1.0
141
16.0
290
     0
  0
SCALE
  5
4F
102
{ACAD_REACTORS
330
47
102
}
330
47
100
AcDbScale
 70
     0
300
1:20
140
1.0
141
20.0
290
     0
  0
SCALE
  5
50
102
{ACAD_REACTORS
330
47
102
}
330
47
100
AcDbScale
 70
     0
300
1:30
140
1.0
141
30.0
290
     0
  0
SCALE
  5
51
102
{ACAD_REACTORS
330
47
102
}
330
47
100
AcDbScale
 70
     0
300
1:40
140
1.0
141
40.0
290
     0
  0
SCALE
  5
52
102
{ACAD_REACTORS
330
47
102
}
330
47
100
AcDbScale
 70
     0
300
1:50
140
1.0
141
50.0
290
     0
  0
SCALE
  5
53
102
{ACAD_REACTORS
330
47
102
}
330
47
100
AcDbScale
 70
     0
300
1:100
140
1.0
141
100.0
290
     0
  0
SCALE
  5
54
102
{ACAD_REACTORS
330
47
102
}
330
47
100
AcDbScale
 70
     0
300
2:1
140
2.0
141
1.0
290
     0
  0
SCALE
  5
55
102
{ACAD_REACTORS
330
47
102
}
330
47
100
AcDbScale
 70
     0
300
4:1
140
4.0
141
1.0
290
     0
  0
SCALE
  5
56
102
{ACAD_REACTORS
330
47
102
}
330
47
100
AcDbScale
 70
     0
300
8:1
140
8.0
141
1.0
290
     0
  0
SCALE
  5
57
102
{ACAD_REACTORS
330
47
102
}
330
47
100
AcDbScale
 70
     0
300
10:1
140
10.0
141
1.0
290
     0
  0
SCALE
  5
58
102
{ACAD_REACTORS
330
47
102
}
330
47
100
AcDbScale
 70
     0
300
100:1
140
100.0
141
1.0
290
     0
  0
SCALE
  5
59
102
{ACAD_REACTORS
330
47
102
}
330
47
100
AcDbScale
 70
     0
300
1/128" = 1'-0"
140
0.0078125
141
12.0
290
     0
  0
SCALE
  5
5A
102
{ACAD_REACTORS
330
47
102
}
330
47
100
AcDbScale
 70
     0
300
1/64" = 1'-0"
140
0.015625
141
12.0
290
     0
  0
SCALE
  5
5B
102
{ACAD_REACTORS
330
47
102
}
330
47
100
AcDbScale
 70
     0
300
1/32" = 1'-0"
140
0.03125
141
12.0
290
     0
  0
SCALE
  5
5C
102
{ACAD_REACTORS
330
47
102
}
330
47
100
AcDbScale
 70
     0
300
1/16" = 1'-0"
140
0.0625
141
12.0
290
     0
  0
SCALE
  5
5D
102
{ACAD_REACTORS
330
47
102
}
330
47
100
AcDbScale
 70
     0
300
3/32" = 1'-0"
140
0.09375
141
12.0
290
     0
  0
SCALE
  5
5E
102
{ACAD_REACTORS
330
47
102
}
330
47
100
AcDbScale
 70
     0
300
1/8" = 1'-0"
140
0.125
141
12.0
290
     0
  0
SCALE
  5
5F
102
{ACAD_REACTORS
330
47
102
}
330
47
100
AcDbScale
 70
     0
300
3/16" = 1'-0"
140
0.1875
141
12.0
290
     0
  0
SCALE
  5
60
102
{ACAD_REACTORS
330
47
102
}
330
47
100
AcDbScale
 70
     0
300
1/4" = 1'-0"
140
0.25
141
12.0
290
     0
  0
SCALE
  5
61
102
{ACAD_REACTORS
330
47
102
}
330
47
100
AcDbScale
 70
     0
300
3/8" = 1'-0"
140
0.375
141
12.0
290
     0
  0
SCALE
  5
62
102
{ACAD_REACTORS
330
47
102
}
330
47
100
AcDbScale
 70
     0
300
1/2" = 1'-0"
140
0.5
141
12.0
290
     0
  0
SCALE
  5
63
102
{ACAD_REACTORS
330
47
102
}
330
47
100
AcDbScale
 70
     0
300
3/4" = 1'-0"
140
0.75
141
12.0
290
     0
  0
SCALE
  5
64
102
{ACAD_REACTORS
330
47
102
}
330
47
100
AcDbScale
 70
     0
300
1" = 1'-0"
140
1.0
141
12.0
290
     0
  0
SCALE
  5
65
102
{ACAD_REACTORS
330
47
102
}
330
47
100
AcDbScale
 70
     0
300
1-1/2" = 1'-0"
140
1.5
141
12.0
290
     0
  0
SCALE
  5
66
102
{ACAD_REACTORS
330
47
102
}
330
47
100
AcDbScale
 70
     0
300
3" = 1'-0"
140
3.0
141
12.0
290
     0
  0
SCALE
  5
67
102
{ACAD_REACTORS
330
47
102
}
330
47
100
AcDbScale
 70
     0
300
6" = 1'-0"
140
6.0
141
12.0
290
     0
  0
SCALE
  5
68
102
{ACAD_REACTORS
330
47
102
}
330
47
100
AcDbScale
 70
     0
300
1'-0" = 1'-0"
140
12.0
141
12.0
290
     0
  0
ENDSEC
  0
EOF
